Song Information for L.A. Girlz

Song Title:L.A. Girlz
Artist:Weezer
Hits:36
{t:L.A. Girlz}
 {st:Weezer}
 
 [Chorus 1]
 
 [A] [D] [A/C#] [D] [A/C#] [D] [B] [E] [A] [D] [A/C#] [D] [A/C#] [D] [B] [E] [F#] 
 {sot}
 e|------------------------------------------|-----------------------------------------------|
 B|------------------------------------------|-----------------------------------------------|
 G|------------------------------------------|-----------------------------------------------|
 D|--7------7----7----7----7----7---------9--|--7------5----4----5----4----5----9----7----9--|
 A|--7------5----4----5----4----5----9----7--|--7------5----4----5----4----5----9----7----9--|
 E|--5-------------------------------7-------|--5-------------------------------7------------|
 {eot}
 
 [A]L.A. girls, please [D]act your [A/C#]age
 You [D]treat me like I [A/C#]have the plague, it's the [D]gyre and gimble [B]in the [E]wabe
 [A] L.A. girls, please [D]act your [A/C#]age
 [D]Sweeten up your [A/C#]lemonade and [D]meet me down at [B]tower [E]twenty-[F#]eight
 
 [Verse 1]
 
 [F#] [C#] [D] [G#] [C#] 
 {sot}
 e|--------------------------------------------------------------------------|
 B|--------------------------------------------------------------------------|
 G|-------------------------------------7------------------------------------|
 D|-11--11--11-------11--11--11---------7--------6-------/11-----------------| x2
 A|-9---9---9--------11--11--11---------5--------6-------/11-----------------|
 E|------------------9---9---9-------------------4-------/9------------------|
 {eot}
 
 [F#] I think I'm in [C#]whiplash, I'm losing it [D]mixing am[G#]monia and [C#]bleach
 I [F#]get off at Pico and [C#]sell my possessions so [D]you will know [G#]just how I [C#]feel
 
 [F#] [C#] [D] [A] [E/G#] 
 {sot}
 e|--------------------------------------------------------------------------|
 B|--------------------------------------------------------------------------|
 G|--------------------------------------7--7--7--7--7--7--------------------|
 D|-11-11-11-11-11-11-11-11-11-11-11-11--7--7--7--7--7--7--------------------|
 A|-9--9--9--9--9--9--11-11-11-11-11-11--5--5--5--5--5--5--7--7--7--7--7--7--|
 E|-------------------9--9--9--9--9--9---------------------5--5--5--4--4--4--|
 {eot}
 
 I [F#]love your long [C#]hair but [D]you just don't [A]care[E/G#]
 
 [F#] [C#] [D] [G#] [C#] [B] 
 {sot}
 e|------------------------------------------------------------------------------------------|
 B|------------------------------------------------------------------------------------------|
 G|-------------------------------------7--7--7----------------------------------------------|
 D|-11-11-11-11-11-11-11-11-11-11-11-11-7--7--7--6--6--6--11-11-11-11-11-11-9--9--9--9--9--9-|
 A|-9--9--9--9--9--9--11-11-11-11-11-11-5--5--5--4--4--4--11-11-11-11-11-11-9--9--9--9--9--9-|
 E|-------------------9--9--9--9--9--9-----------4--4--4--9--9--9--9--9--9--7--7--7--7--7--7-|
 {eot}
 
 So [F#]please help me fathom this [C#]world without music and [D]by the way, [G#]when can we [C#]talk?[B]
 
 [Chorus 2]
 
 [A] [D] [A/C#] [D] [A/C#] [D] [B] [E] [A] [D] [A/C#] [D] [A/C#] [D] [B] [E] [F#] 
 {sot}
 e|------------------------------------------|-----------------------------------------------|
 B|------------------------------------------|-----------------------------------------------|
 G|------------------------------------------|-----------------------------------------------|
 D|--7------7----7----7----7----7---------9--|--7------5----4----5----4----5----9----7----9--|
 A|--7------5----4----5----4----5----9----7--|--7------5----4----5----4----5----9----7----9--|
 E|--5-------------------------------7-------|--5-------------------------------7------------|
 {eot}
 
 [A]L.A. girls, please [D]act your [A/C#]age
 You [D]treat me like I [A/C#]have the plague, it's the [D]gyre and gimble [B]in the [E]wabe
 [A] L.A. girls, please [D]act your [A/C#]age
 [D]Sweeten up your [A/C#]lemonade and [D]meet me down at [B]tower [E]twenty-[F#]eight
 
 [Verse 2]
 
 [F#] [C#] [D] [G#] [C#] 
 {sot}
 e|--------------------------------------------------------------------------|
 B|--------------------------------------------------------------------------|
 G|-------------------------------------7------------------------------------|
 D|-11--11--11-------11--11--11---------7--------6-------/11-----------------| x2
 A|-9---9---9--------11--11--11---------5--------6-------/11-----------------|
 E|------------------9---9---9-------------------4-------/9------------------|
 {eot}
 
 [F#] So would you mind [C#]if I was pregnant, I'll [D]sleep on the [G#]edge of your [C#]bed
 Like [F#]Dante and Beatrice, we'll [C#]light up our candles but [D]how is this [G#]going to [C#]end?
 
 [F#] [C#] [D] [A] [E/G#] 
 {sot}
 e|--------------------------------------------------------------------------|
 B|--------------------------------------------------------------------------|
 G|--------------------------------------7--7--7--7--7--7--------------------|
 D|-11-11-11-11-11-11-11-11-11-11-11-11--7--7--7--7--7--7--------------------|
 A|-9--9--9--9--9--9--11-11-11-11-11-11--5--5--5--5--5--5--7--7--7--7--7--7--|
 E|-------------------9--9--9--9--9--9---------------------5--5--5--4--4--4--|
 {eot}
 
 The [F#]kids are a[C#]sleep, we're [D]haunting their [A]dreams[E/G#]
 
 [F#] [C#] [D] [G#] [C#] [B] 
 {sot}
 e|------------------------------------------------------------------------------------------|
 B|------------------------------------------------------------------------------------------|
 G|-------------------------------------7--7--7----------------------------------------------|
 D|-11-11-11-11-11-11-11-11-11-11-11-11-7--7--7--6--6--6--11-11-11-11-11-11-9--9--9--9--9--9-|
 A|-9--9--9--9--9--9--11-11-11-11-11-11-5--5--5--4--4--4--11-11-11-11-11-11-9--9--9--9--9--9-|
 E|-------------------9--9--9--9--9--9-----------4--4--4--9--9--9--9--9--9--7--7--7--7--7--7-|
 {eot}
 
 And [F#]some women swear it's more [C#]painful than labor to [D]die with your [G#]sins on your [C#]head[B]
 
 [Bridge]
 
 Guitar 1 - clean
 [A] [D] 
 {sot}
 e|----5-----5-----5-----5-------|--5-----5-----5-----5------|
 B|------5-----5-----5-----5-----|----7-----7-----7-----7----|
 G|--------6-----6-----6-----6---|------7-----7-----7-----7--|
 D|------------------------------|---------------------------| x2
 A|------------------------------|---------------------------|
 E|------------------------------|---------------------------|
 {eot}
 
 [A]Does anybody [D]love anybody [A]as much as I [D]love you, baby?
 
 Guitar 2 - building up
 [A] [D/F#] [E] [D] 
 {sot}
 e|------------------------------|
 B|------------------------------|
 G|-------------------------7----|
 D|----7------4------2------7----|
 A|----7------5------2------5----|
 E|----5------2------0-----------|
 {eot}
 
 [A]Does anybody [D/F#]love anybody [E]as much as I [D]love you, baby?
 
 Guitar 2 - distorted
 [A] [E/G#] [F#] [E] 
 {sot}
 e|------------------------------|
 B|------------------------------|
 G|------------------------------|
 D|----7------6------4------2----|
 A|----7------7------4------2----|
 E|----5------4------2------0----|
 {eot}
 
 [A]Does anybody [E/G#]love anybody [F#]as much as I [E]love you, baby?
 
 Guitar 1 - clean
 [A] [E/G#] [Dmaj7] [E] 
 {sot}
 e|----5------4------5-----------|
 B|----5------5------7------9----|
 G|----6------4------6------9----|
 D|----7------6------7------9----|
 A|-------------------------7----|
 E|------------------------------|
 {eot}
 
 [A]Does anybody [E/G#]love anybody [Dmaj7]as much as I [E]love you, baby?
 
 [Solo]
 
 [A] [D] [C#] [D] [C#] 
 [D] [B] [E] [A] 
 [A] [D] [C#] [D] [C#] 
 [D] [B] [E] [A] 
 
 [Chorus 3]
 
 [A] [D] [A/C#] [D] [A/C#] [D] [B] [E] [A] [D] [A/C#] [D] [A/C#] [D] [B] [E] [F#] 
 {sot}
 e|------------------------------------------|-----------------------------------------------|
 B|------------------------------------------|-----------------------------------------------|
 G|------------------------------------------|-----------------------------------------------|
 D|--7------7----7----7----7----7---------9--|--7------5----4----5----4----5----9----7----9--|
 A|--7------5----4----5----4----5----9----7--|--7------5----4----5----4----5----9----7----9--|
 E|--5-------------------------------7-------|--5-------------------------------7------------|
 {eot}
 
 [A]L.A. girls, please [D]act your [A/C#]age
 You [D]treat me like I [A/C#]have the plague, it's the [D]gyre and gimble [B]in the [E]wabe
 [A] L.A. girls, please [D]act your [A/C#]age
 [D]Sweeten up your [A/C#]lemonade and [D]meet me down at [B]tower [E]twenty-[F#]eight