Song Information for S.A.D. (Single Awareness Day)

Song Title:S.A.D. (Single Awareness Day)
Artist:Vincent, Joseph
Hits:57
{t:S.A.D. (Single Awareness Day)}
 {st:Joseph Vincent}
 
 PisLabRakEnRol
 
 {sot}
 --------------------------------------------------
 {eot}
 Song: SAD (Single Awareness Day)
 Artist: Joseph Vincent
 Tabbed by: michaelangelo_L.
 Email: kinzakuya000@yahoo.com
 
 [F7] [C7] [Em7] 
 {sot}
 e|--1--- e|--8--- e|--7---|
 B|--1--- B|--8--- B|--8---|
 G|--2--- G|--9--- G|--7---|
 D|--1--- D|--8--- D|--9---|
 A|--3--- A|--10-- A|--7---|
 E|--1--- E|--8--- E|--x---|
 {eot}
 
 [Dmaj7] [Bm7] [A7] [D7] [F#m7] 
 {sot}
 e|--x--- e|--x--- e|--5--- e|--10-- e|--9---|
 B|--7--- B|--7--- B|--5--- B|--10-- B|--10--|
 G|--6--- G|--7--- G|--6--- G|--11-- G|--9---|
 D|--7--- D|--7--- D|--5--- D|--10-- D|--11--|
 A|--5--- A|--x--- A|--7--- A|--12-- A|--9---|
 E|--x--- E|--7--- E|--5--- E|--10-- E|--x---|
 {eot}
 
 
 
 Intro
 
 Guitar 1
 
 {sot}
 e|------------------------------------------------------------|
 B|----8/13----8/10---10--8---------8h10--8--------------------|
 G|---------------------------8h9--------------5h7--5------5---|
 D|-----------------------------------------------------7------|
 A|------------------------------------------------------------|
 E|------------------------------------------------------------|
 {eot}
 
 Guitar 2
 [Cmaj7] [Am7] [Dm7] [G7] 
 {sot}
 e|------------3--------------x--------------5-------------3------|
 B|------------5--------------5--------------6-------------3------|
 G|------------4--------------5--------------5-------------4------|
 D|------------5--------------5--------------7-------------3------|
 A|----3----------------------x------5---------------------5------|
 E|----x--------------5--------------x--------------3-------------|
 {eot}
 
 (hehe hindi ako sure kung Cmaj7 tawag dyan, basta family of C yan sya, basta! ganyan
 yung tab nya :D )
 
 
 
 Verse 1 (gayahin nyo lang ang pagstrum ng guitar 2 sa mga verses)
 [Cmaj7]I feel that I[Am7] should tell ya
 [Dm7]A warning to prep[G7]are ya[Cmaj7]
 [Am7] [Dm7] [G7] 
 [Cmaj7]About th[Am7]is song, [Dm7]it's when love goes wrong
 [G7]But I'll carr[Cmaj7]y on[Am7][Dm7][G7]
 
 [Cmaj7]I gotta keep it rea[Am7]l
 [Dm7]Of how I really f[G7]eel[Cmaj7]
 [Am7] [Dm7] [G7] [Cmaj7] [Am7]
 Ab[Dm7]out this day, I don't want it to stay
 
 [G7]So please[Cmaj7] go away[Am7][Dm7][G7]
 
 Pre-chorus
 [F7]When cupid aimed hi[G7]s arrow at me
 [F7]He missed by a hund[G7]red thousand feet....oh
 
 Chorus
 [Cmaj7]This ain't a song about l[Am7]ove
 [Dm7]It is actually the opposite I[G7]'m thinkin' of
 I don't[Cmaj7] care 'bout the cards or[Am7] the candy hearts
 [Dm7]Oh no no no I'll tell you right[G7] from the start oh
 
 [F7]Reminds of how I d[G7]on't have a date
 Th[C7]e 14th of [Em7]February [Am7]gets in the way, c[F7]ause for me
 [G7]It's Single Awareness Day
 
 
 Intro (2nd verse)
 
 Guitar 1
 
 {sot}
 e|------------------------------------------------------------|
 B|----8/13----8/10---10--8---------8--10--8-------------------|
 G|---------------------------8h9---------------7--5h7--5---5--|
 D|-------------------------------------------------------7----|
 A|------------------------------------------------------------|
 E|------------------------------------------------------------|
 {eot}
 
 Guitar 2
 
 (gayahin lang sa intro :D)
 
 
 Verse 2
 [Cmaj7]With all the red an[Am7]d pink
 [Dm7]It's just so hard t[G7]o thin[Cm7]k
 [Am7]Oh why should I [Dm7]care, about [G7]what I shoul[Cmaj7]d wear
 [Am7] [Dm7] 
 [G7]For nobody who's[Cmaj7] there[Am7][Dm7][G7]
 
 (iba na ang pagstrum ditto na part, kayo na bahala :D)
 
 [Cmaj7]I need love,
 [Am7]I need you
 [Dm7]I need someone to hol[G7]d me too
 
 [Cmaj7]I need love
 [Am7]It's so true
 [Dm7]I need ya to say [G7]I love you
 
 Pre-chorus
 [F7]But when cupid aime[G7]d his arrow at me
 [F7]He missed by a hund[G7]red thousand feet..oh
 
 Chorus
 [Cmaj7]This ain't a song about l[Am7]ove
 [Dm7]It is actually the opposite I[G7]'m thinkin' of
 I don't[Cmaj7] care 'bout the cards or[Am7] the candy hearts
 [Dm7]Oh no no no I'll tell you right[G7] from the start oh
 
 [F7]Reminds of how I do[G7]n't have a date
 Th[C7]e 14th of [Em7]February [Am7]gets in the way, c[F7]ause for me
 [G7]It's Single Awareness Day[Cmaj7][Am7][Dm7]
 [G7]Oooohhhhh....[Cmaj7][Am7][Dm7]
 [G7]I said
 
 Verse 3
 [Cmaj7]S.A.D No [Am7]valentine[Dm7] for me[G7]
 [Cmaj7]And Imma be alr[Am7]ight if y[Dm7]ou could on[G7]ly see
 That [Cmaj7]today's just a [Am7]day and i[Dm7]f it's meant[G7] to be
 There's always n[Cmaj7]ext year, just wa[Dm7]it and see.[G7]..w[-]ai[A7]t and seeeeee..oh oh ohoooh
 
 Chorus (nagshift ang chords)
 [Dmaj7]This ain't a song about l[Bm7]ove
 [Em7]It is actually the opposite I[A7]'m thinkin' of
 I don't[Dmaj7] care 'bout the cards or[Bm7] the candy hearts
 [Em7]Oh no no no I'll tell you right[A7] from the start oh
 
 [G7]Reminds of how I do[A7]n't have a date
 Th[D7]e 14th of [F#m7]February g[Bm7]ets in the way, ca[G7]use for me
 [A7]It's Single Awareness Day
 
 (gayahin lang ang pagstrum ng guitar 2)
 
 [Dmaj7] [Bm7] [Em7] 
 [A7]oh no no[Dmaj7] no no[Bm7][Em7]
 [A7]I said S[Dmaj7] A D no[Bm7] vale[Em7]ntine[A7] for me...
 [Dmaj7]But imm[Bm7]a be [Em7]alright..[A7].
 
 
 
 -Sorry hindi ko alam ang ibang lead na parts eh.. :D