Song Information for La granja

Song Title:La granja
Artist:Tronic
Hits:22
{t:La granja}
 {st:Tronic}
 
 [+++++++++++++++++++++]| Tronic- La Granja |
 [+++++++++++++++++++++] 
 
 "La vida aquí es mejor, el aire es puro y brilla el sol..."
 
 Tuning: EADG
 
 Intro
 1.
 
 {sot}
 G|---4-------4-------4-------------------------------------------------|
 D|-5-----4-5-----4-5-----4-5x--------2-5---0-2-5---0-2-5---0-2x--------|
 A|-----5-------5-------5-----------------2-------2-------2-------------|
 E|---------------------------------------------------------------------|
 {eot}
 
 Verse
 "Despierto contento..."
 2.
 
 {sot}
 G|---4-------4-------4-------------------------------------------------|
 D|-5-----4-5-----4-5-----4-5x--------2-5---0-2-5---0-2-5---0-2x--------|
 A|-----5-------5-------5-----------------2-------2-------2-------------|--x2
 E|---------------------------------------------------------------------|
 {eot}
 
 Pre-Chorus
 "Y así es nuestra granja..."
 3.
 
 {sot}
 G|----------------------------------------------------------------------------------|
 D|-----------------5-5-4-4-2-2-0-0-----------------5-5-4-4-2-2-0-0---------77777777-|
 A|-3-3-3-3-5-5-5-5-----------------3-3-3-3-5-5-5-5-----------------3-3-3-3----------|
 E|----------------------------------------------------------------------------------|
 {eot}
 
 Chorus
 "Porque la vida aquí es mejor..."
 4.
 
 {sot}
 G|-------------------------------------------------------------------------|
 D|-55555555-55555555-55555555-44444444-22222222-22222222-22222222-00000000-|
 A|-------------------------------------------------------------------------|
 E|-------------------------------------------------------------------------|
 {eot}
 
 "Hay mucha fruta a tu elección..."
 5.
 
 {sot}
 G|-------------------------------------------------------------------------|
 D|----------------------------------------------------------------77777777-|
 A|-00000000-00000000-33333333-33333333-55555555-33333333-22222222----------|
 E|-------------------------------------------------------------------------|
 {eot}
 
 Outro
 6.
 
 {sot}
 G|---4-------4-------4-------------------------------------------------|
 D|-5-----4-5-----4-5-----4-5x--------2-5---0-2-5---0-2-5---0-2x--------|
 A|-----5-------5-------5-----------------2-------2-------2-------------|
 E|---------------------------------------------------------------------|
 {eot}
 ( Tab from: http://www.guitartabs.cc/tabs/t/tronic/la_granja_btab.html )
 Verse
 "Es tarde, hay hambre..."
 7.
 
 {sot}
 G|---4-------4-------4-------------------------------------------------|
 D|-5-----4-5-----4-5-----4-5x--------2-5---0-2-5---0-2-5---0-2x--------|
 A|-----5-------5-------5-----------------2-------2-------2-------------|--x2
 E|---------------------------------------------------------------------|
 {eot}
 
 Chorus
 "Porque la vida aquí es mejor..."
 8.
 
 {sot}
 G|-------------------------------------------------------------------------|
 D|-55555555-55555555-55555555-44444444-22222222-22222222-22222222-00000000-|
 A|-------------------------------------------------------------------------|
 E|-------------------------------------------------------------------------|
 {eot}
 
 "Hay mucha fruta a tu elección..."
 9.
 
 {sot}
 G|-------------------------------------------------------------------------|
 D|----------------------------------------------------------------77777777-|
 A|-00000000-00000000-33333333-33333333-55555555-33333333-22222222----------|
 E|-------------------------------------------------------------------------|
 {eot}
 
 "Y aquí se toma leche de verdad..."
 10.
 
 {sot}
 G|---4-------4-------4-------4-------------------------------------|
 D|-5-----4-5-----4-5-----4-5-----4-2-5---0-2-5---0-2-5---0-2-5---0-|
 A|-----5-------5-------5-------5-------2-------2-------2-------2---|
 E|-----------------------------------------------------------------|
 {eot}
 
 "Sin preservante artificial..."
 11.
 
 {sot}
 G|-------------------------------------------------------------------------|
 D|----------------------------------------------------------------77777777-|
 A|-00000000-00000000-33333333-33333333-55555555-33333333-22222222----------|
 E|-------------------------------------------------------------------------|
 {eot}
 
 Outro
 12.
 
 {sot}
 G|---4-------4-------4---------------|
 D|-5-----4-5-----4-5-----4-5x--------|
 A|-----5-------5-------5-------------|
 E|-----------------------------------|
 {eot}
 
 Lyrics:
 
 Despierto contento porque vivo en el campo
 Los gallos cantan canciones aquí
 Mi abuelo me manda "Anda a ordeñar la vaca"
 Y el perro me sigue con el ratón
 
 Y así es nuestra granja
 Tiene patos y plantas que hacen reir
 
 Porque la vida aquí es mejor
 El aire es puro y brilla el sol
 Hay mucha fruta a tu elección
 
 Es tarde, hay hambre, espero que mi abuela
 Prepare un rico pie de limon
 Llegaron mis tíos, mis primas y mis primos
 Mi taita destapa un viejo tinto
 
 Y aquí se toma leche de verdad
 Se come queso natural
 Sin preservante artificial
 
 
 [+++++++++++++++++++++++++++++++++]| RaiLeff |
 | Underground__Dora@Hotmail.Com |
 [+++++++++++++++++++++++++++++++++]