Song Information for DDevil

Song Title:DDevil
Artist:System of a Down
Hits:530
{t:DDevil}
 {st:System of a Down}
 
 
 {sot}
 |---------DDEVIL------------|
 {eot}
 
 This would be my first Tab, After seeing so many SOAD songs tabbed
 wrong [at least from what i hear in it] I think this easy one will be a good start!
 Ive been putting off tabbing these songs but look forward to most of the others,
 Especially the ones that i know that haven't been posted!
 
 I have a few good years of ear exp in figuring out my own songs...I couldnt tell you
 Much about reading music and the below tab has no time frame to it cept the repeats.
 Just listen to the song and the feel becomes second nature as in every one of SOAD's
 songs.
 
 [***] Triplet feel
 
 
 {sot}
 D :--------------------------------------------------------
 A :--------------------------------------------------------
 F :--------------------------------------------------------
 C :-------[***]-----------[***]------------[***]-----------
 G :-6-5---6-6-6-5---6-5---6-6-6-5----6-5---6-6-6-5---6-5---
 C :-6-5---6-6-6-5---6-5---6-6-6-5----6-5---6-6-6-5---6-5---
 ---------*1|
 ---------*||
 --------- ||
 {eot}
 [***]---- || Repeat
 6-6-6-5-- ||
 6-6-6-5-- ||
 
 
 {sot}
 D :--------------------------------------------------------
 A :--------------------------------------------------------
 F :--------------------------------------------------------
 C :--------------------------------------------------------
 G :7--8-7--8-7--8-7--8-7--8-7--8-7--8-7--8-7--8-7--8-7--8-7
 C :7-h8-7-h8-7-h8-7-h8-7-h8-7-h8-7-h8-7-h8-7-h8-7-h8-7-h8-7
 -------------------------*1|
 -------------------------*||
 ------------------------- ||
 --------------8-p7------- || Repeat
 --8-7--8-8-p7------8-p7-- ||
 -h8-7-h8----------------- ||
 D :--------------------------------------------------------
 A :--------------------------------------------------------
 F :--------------------------------------------------------
 C :---------------------[***]------------------[***]-------
 G :5---4---6---5---6-5--6-6-6-5---6---5---6-5--6-6-6-5---6-
 C :5---4---6---5---6-5--6-6-6-5---6---5---6-5--6-6-6-5---6-
 --------------------------|
 --------------------------|
 --------------------------|
 ------------[***]---------|
 --5---6-5---6-6-6-5---6-5-|
 --5---6-5---6-6-6-5---6-5-|
 D :--------------------------------------------------------
 A :--------------------------------------------------------
 F :--------------------------------------------------------
 C :--------------------------------------------------------
 G :7--8-7--8-7--8-7--8-7--8-7--8-7--8-7--8-7--8-7--8-7--8-7
 C :7-h8-7-h8-7-h8-7-h8-7-h8-7-h8-7-h8-7-h8-7-h8-7-h8-7-h8-7
 -------------------------*1|
 -------------------------*||
 ------------------------- ||
 --------------8-p7------- || Repeat
 --8-7--8-8-p7------8-p7-- ||
 -h8-7-h8----------------- ||
 D :--------------------------------------------------------
 A :--------------------------------------------------------
 F :--------------------------------------------------------
 C :---------------------[***]------------------[***]-------
 G :5---4---6---5---6-5--6-6-6-5---6---5---6-5--6-6-6-5---6-
 C :5---4---6---5---6-5--6-6-6-5---6---5---6-5--6-6-6-5---6-
 --------------------------|
 --------------------------|
 --------------------------|
 ------------[***]---------|
 --5---6-5---6-6-6-5---6-5-|
 --5---6-5---6-6-6-5---6-5-|
 D :--------------------------------------------------------
 A :--------------------------------------------------------
 F :----------[***]--------------[***]--------------[***]---
 C :7-7--5-5--7-7-7-5--7-7--5-5--7-7-7-5--7-7--5-5--7-7-7-5-
 G :--------------------------------------------------------
 C :--------------------------------------------------------
 -------------------*1|
 -------------------*||
 -----------[***]--- ||
 -7-7--5-5--7-7-7-5- || Repeat
 ------------------- ||
 ------------------- ||
 D :--------------------------------------------------------
 A :--------------------------------------------------------
 F :----------[***]-----------------------------------------
 C :7-7--5-5--7-7-7-5---------------------------------------
 G :-------------------7--8-7--8-7--8-7--8-7--8-7--8-7--8-7-
 C :-------------------7-h8-7-h8-7-h8-7-h8-7-h8-7-h8-7-h8-7-
 --------------------------------------------*1|
 --------------------------------------------*||
 -------------------------------------------- ||
 ---------------------------------8-p7------- || Repeat
 -8-7--8-7--8-7--8-7--8-7--8-8-p7------8-p7-- ||
 h8-7-h8-7-h8-7-h8-7-h8-7-h8----------------- ||
 D :--------------------------------------------------------
 A :--------------------------------------------------------
 F :--------------------------------------------------------
 C :---------------------[***]------------------[***]-------
 G :5---4---6---5---6-5--6-6-6-5---6---5---6-5--6-6-6-5---6-
 C :5---4---6---5---6-5--6-6-6-5---6---5---6-5--6-6-6-5---6-
 --------------------------|
 --------------------------|
 --------------------------|
 ------------[***]---------|
 --5---6-5---6-6-6-5---6-5-|
 --5---6-5---6-6-6-5---6-5-|
 D :--------------------------------------------------------
 A :--------------------------------------------------------
 F :--------------------------------------------------------
 C :-----[***]------------------[***]------------------[***]
 G :6-5--6-6-6-5---6---5---6-5--6-6-6-5---6---5---6-5--6-6-6
 C :6-5--6-6-6-5---6---5---6-5--6-6-6-5---6---5---6-5--6-6-6
 --------------------------------------------------------|
 --------------------------------------------------------|
 -----[Shred it thru------------to here------------->]---|
 --------------------------------------------------------|
 -5---666566656665666566656665666566656665666566656665-5-|
 -5---666566656665666566656665666566656665666566656665-5-|
 {eot}
 
 
 Comments & Questions : hatchet108@hotmail.com