Song Information for S.F.H. Theme

Song Title:S.F.H. Theme
Artist:Star Fucking Hipsters
Hits:29
{t:S.F.H. Theme}
 {st:Star Fucking Hipsters}
 
 Band - Star Fucking Hipsters
 Song - S.F.H. Theme
 Album - Never Rest In Peace
 
 Tabbed By: SumFX (Tyler Freear)
 
 Tuning Eb (Eb Ab Db Gb Bb Eb)
 
 Great Metally Tune From SFH!
 
 I Have Tabbed Both Rhythm (Left Speaker) & Lead (Right Speaker) Guitars.
 Rhythm On Top
 Lead At Bottom
 
 .=Palm Mute
 /\=Slides
 *=Pinch Harmonic
 
 
 {sot}
 -----------------------------------------------------------------------------
 {eot}
 Rhythm Guitar
 
 Intro
 
 {sot}
 |---------------------------|
 |---------------------------|
 |---------------------------|
 |-222-333-555-333-222-333-2-|
 |-222-333-555-333-222-333-2-|
 |-000-111-333-111-000-111-0-|
 {eot}
 ... ... ... ... ... ... .
 
 Lead Overdub
 Comes In At :0.9 2.01 2.05
 
 {sot}
 |----12---|
 |-12------|
 |---------|
 |---------|
 |---------|
 |---------|
 {eot}
 
 Verse
 
 {sot}
 |-----------------------------------------------------------|
 |-----------------------------------------------------------|
 |-----------------------------------------------------------|
 |--------7--------------7--------------7-------7-6-7-9-7-6--|
 |-7-8-10---10-8--7-8-10---10-8--7-8-10---10-8---------------|
 |-----------------------------------------------------------|
 {eot}
 . . . . . . . . . . . . . . . . . . . . .
 
 {sot}
 |--------------------------------------------------------|
 |--------------------------------------------------------|
 |----------------------------------------------------9*--|
 |--------7--------------7--------------7-------7-6-7-----|
 |-7-8-10---10-8--7-8-10---10-8--7-8-10---10-8------------|
 |--------------------------------------------------------|
 {eot}
 . . . . . . . . . . . . . . . . . .
 
 Chorus
 
 {sot}
 |-0-0-0-0-----------------|
 |-0-0-0-0-----------------|
 |-9-9-9-9--10-10-10/1212--|
 |-x-x-x-x--x--x--x--x-x---|
 |-7-7-7-7--8--8--8-/1010--|
 |-------------------------|
 {eot}
 
 Pre Bridge
 
 {sot}
 |-------------------------------|
 |-------------------------------|
 |-99-1010-1212-1010-99-10101010-|
 |-99-1010-1212-1010-99-10101010-|
 |-77-8-8--1010-8-8--77-8-8-8-8--|
 |-------------------------------|
 {eot}
 
 Bridge
 
 {sot}
 |-------------------------------|
 |-------------------------------|
 |-99-1010-1212-1010-99-10101010-|
 |-99-1010-1212-1010-99-10101010-|
 |-77-8-8--1010-8-8--77-8-8-8-8--|
 |-------------------------------|
 {eot}
 
 Outro
 
 {sot}
 |--------------------------|------------------------|
 |--------------------------|------------------------|
 |-99-1010-1212-1010-99-10--|-99-1010-9--99-1010-9---|
 |-99-1010-1212-1010-99-10--|-99-1010-9--99-1010-9---|
 |-77-8-8--1010-8-8--77-8---|-77-8-8--7--77-8-8--7---|
 |--------------------------|------------------------|
 {eot}
 
 [E5] 
 {sot}
 |-------------------|
 |-------------------|
 |-------------------|
 |-2-----------------|
 |-2-----------------|
 |-0-----------------|
 ----------------------------------------------------------------------------
 {eot}
 Lead Guitar
 
 Intro
 
 {sot}
 |---------------------------|
 |---------------------------|
 |---------------------------|
 |-222-333-555-333-222-333-2-|
 |-222-333-555-333-222-333-2-|
 |-000-111-333-111-000-111-0-|
 {eot}
 ... ... ... ... ... ... .
 
 Lead Overdub
 Comes In At: 0.9 2.01 2.05
 
 {sot}
 |----------|
 |----17----|
 |-16-------|
 |----------|
 |----------|
 |----------|
 {eot}
 
 Verse
 
 {sot}
 |----------------------------------------------------|
 |----------------------------------------------------|
 |-------2------------2------------2------2-1-2-4-2-1-|
 |-2-3-5---5-3--2-3-5---5-3--2-3-5---5-3--------------|
 |----------------------------------------------------|
 |----------------------------------------------------|
 {eot}
 . . . . . . . . . . . . . . . . . . . . .
 
 {sot}
 |---------------------------------------------------|
 |-----------------------------------------------5*--|
 |-------2------------2------------2------2-1-2------|
 |-2-3-5---5-3--2-3-5---5-3--2-3-5---5-3-------------|
 |---------------------------------------------------|
 |---------------------------------------------------|
 {eot}
 . . . . . . . . . . . . . . . . . .
 
 Chorus
 
 {sot}
 |-0-0-0-0------------------|
 |-0-0-0-0------------------|
 |-9-9-9-9--10-10-10/1212---|
 |-x-x-x-x--x--x--x--x-x----|
 |-7-7-7-7--8--8--8-/1010---|
 |--------------------------|
 {eot}
 
 Pre Bridge
 
 {sot}
 |-------------------|
 |-------------------|
 |-4/9-------4/9-----|
 |-x-x-------x-x-----|
 |-2/7-------2/7-----|
 |-------------------|
 {eot}
 
 Bridge
 
 {sot}
 |-------------------------------|
 |-------------------------------|
 |-99-1010-1212-1010-99-10101010-|
 |-99-1010-1212-1010-99-10101010-|
 |-77-8-8--1010-8-8--77-8-8-8-8--|
 |-------------------------------|
 {eot}
 
 Outro
 
 {sot}
 |--------------------------|------------------------|
 |--------------------------|------------------------|
 |-99-1010-1212-1010-99-10--|-99-1010-9--99-1010-9---|
 |-99-1010-1212-1010-99-10--|-99-1010-9--99-1010-9---|
 |-77-8-8--1010-8-8--77-8---|-77-8-8--7--77-8-8--7---|
 |--------------------------|------------------------|
 {eot}
 
 [E5] 
 {sot}
 |-------------------|
 |-------------------|
 |-9-----------------|
 |-9-----------------|
 |-7-----------------|
 |-------------------|
 {eot}
 
 Structure
 Bass Intro
 Intro
 Bass Pre Verse
 Verse
 Chorus
 Verse
 Chorus
 Verse
 Intro
 Pre Bridge
 Bridge
 Outro
 [E5] 
 Well, What A Good Theme. Start Fucking Trees!
 
 Rate & Comment Please!