Song Information for Sa Piling Mo

Song Title:Sa Piling Mo
Artist:Silent Sanctuary
Hits:59
{t:Sa Piling Mo}
 {st:Silent Sanctuary}
 
 Tuning: Standard tuning
 
 Kayo na bahala sa strumming basic lang naman hahaha
 
 INTRO
 [F] [G] [Em] [Am] 
 {sot}
 e|-----------------------------|
 B|---------------------1-1-----|
 G|---------------------2-2-----| x2
 D|---3-3---5-5---2-2---2-2-----|
 A|---3-3---5-5---2-2-----------|
 E|---1-1---3-3---0-0-----------|
 {eot}
 
 VERSE
 [F] [G] [Em] [Am] 
 {sot}
 e|-----------------------------|
 B|---------------------1-1-----|
 G|---------------------2-2-----|
 D|---3-3---5-5---2-2---2-2-----|
 A|---3-3---5-5---2-2-----------|
 E|---1-1---3-3---0-0-----------|
 {eot}
 
 PRE-CHORUS (di ko makapa yung plucking dito sorry hehe)
 [Dm] [Em] [F] [G] 
 {sot}
 e|---1---------------------|
 B|---3---------------------|
 G|---2---------------------|
 D|--------2-----3---5------|
 A|--------2-----3---5------|
 E|--------0-----1---3------|
 {eot}
 
 CHORUS
 [F] [G] [Em] [Am] 
 {sot}
 e|-------------------------|
 B|------------------1------|
 G|------------------2------|
 D|---3----5----2----2------| x3
 A|---3----5----2-----------|
 E|---1----3----0-----------|
 {eot}
 
 [F] [G] 
 {sot}
 e|------------|
 B|------------|
 G|------------|
 D|---3----5---|
 A|---3----5---|
 E|---1----3---|
 {eot}
 
 Repeat Intro
 Repeat Verse (palm mute)
 Repeat Pre-chorus
 Repeat Chorus
 
 INTERLUDE
 
 
 {sot}
 e|------8-----8----------10--10-8------------8------8-----------10-----------|
 B|-----8-----6---------8---8------8---------8------6----------8----8---------|
 G|---10-----7-----7/9---------------9-----10------7------7/9-----------------|
 D|---------------------------------------------------------------------------|
 A|---------------------------------------------------------------------------|
 E|---------------------------------------------------------------------------|
 e|------8-----8----------10--10-8------------8------8--------10-----------|
 B|-----8-----6---------8---8------8---------8------6--------8-------------|
 G|---10-----7-----7/9---------------9-----10------7------7/9--------------|
 D|------------------------------------------------------------------------|
 A|------------------------------------------------------------------------|
 E|------------------------------------------------------------------------|
 {eot}
 
 BRIDGE
 [F] [C] 
 {sot}
 e|----------------------------------------|
 B|----------------------------------------|
 G|----------------------------------------|
 D|----3-3-3-0-0-0-2-2-2-------------------| x7
 A|----------------------3-3-3-2-2-3-3-----|
 E|----------------------------------------|
 {eot}
 
 [F] [Abm] [G] 
 {sot}
 e|---------------------------------------------------------------------------|
 B|---------------------------------------------------------------------------|
 G|---------------------------------------------------------------------------|
 D|-----3--------6-6---6-6-----5-5--------------------------------------------|
 A|-----3--------6-6---6-6-----5-5--------------------------------------------|
 E|-----1--------4-4---4-4-----3-3--------------------------------------------|
 {eot}