Song Information for Saat Aku Lanjut Usia

Song Title:Saat Aku Lanjut Usia
Artist:Sheila on 7
Hits:27
{t:Saat Aku Lanjut Usia}
 {st:Sheila on 7}
 
 title: Saat Aku Lanjut Usia
 artist: Sheila On 7
 
 
 intro:
 
 
 {sot}
 |---------------2------------2---------------------------------------|
 |---------------3------------3---------------------------------------|
 |---------------2------------2------7---7--9--------7---7---9-9------|
 |--------2---2---------2---2------7-7-7-7--9------7-7-7-7---9-9------|
 |------2-3-2-3-------2-3-2-3------7-5-7-5--7------7-5-7-5---7-7------|
 |------3---3---------3---3--------5---5-----------5---5--------------|
 {eot}
 chords G C G C D G C G C D A D A D E A D A D E
 
 verse:
 
 
 {sot}
 |----------------------------------------------------------------|
 |----------------------------------------------------------------|
 |----------------------7---7--9----------------------------------|
 |7-------------------7-7-7-7--9----------------------------------|
 |7-------------------7-5-7-5--7----------------------------------|
 |5-------------------5---5---------------------------------------|
 {eot}
 [A] [A] [D] [A] [D] [E] 
 saat aku lanjut usia..
 [A]Saat ragaku terasa t[A]ua[D][A][D][E]
 [A]Tetaplah kau s'lalu di si[A]ni[D][A][D][E]
 
 {sot}
 |-----------------------------------------------------------------|
 |-----------------------------------------------------------------|
 |4---------9-------------7---7--9---------------------------------|
 |4---------9-----------7-7-7-7--9---------------------------------|
 |2---------7-----------7-5-7-5--7---------------------------------|
 |----------------------5---5--------------------------------------|
 {eot}
 [Bm] [E] [A] [D] [A] [D] [E] 
 Menemani aku bernyanyi.....
 
 [A]Saat rambutku mulai ronto[A]k[D][A][D][E]
 [A]Yakinlah ku tetap setia[A][D][A][D][E]
 
 
 {sot}
 |----------------------------------------------------------------|
 |----------------------------------------------------------------|
 |4-------------------7------------9-----------7---7--------7-----|
 |4-------------------7------------9---------7-7-7-7-9----7-7-7---|
 |2-------------------5------------7---------7-5-7-5-9----7-5-7---|
 |-------------------------------------------5---5---7----5---5---|
 {eot}
 [Bm] [D] [E] [A][D][A][D][E][A][D][A]
 Memijit pundakmu hingga kau tertidur pulas...
 
 
 chorus:
 (palm muted)
 
 {sot}
 |----------------------------------------2-----------------------|
 |2---------------------------------------3-----------------------|
 |2----------------1----------------------2-----------------------|
 |2----------------2------------4---------------------------------|
 |-----------------2------------4---------------------------------|
 |------------------------------2---------------------------------|
 {eot}
 [A] [E] [F#m] [D]
 Genggam tanganku saat tubuhku terasa linu
 [A]Kupeluk erat tubuhmu[E] saat din[F#m]gin menyerang[D]mu
 
 
 {sot}
 |-2--------------------------------------------------------------|
 |-3--------------------------------------------------------------|
 |-2-------------------6------------------------------------------|
 |---------------------6------------------------------------------|
 |---------------------4------------------------------------------|
 |----------------------------------------------------------------|
 {eot}
 K[D]ita lawan bersama, [C#m]dingin dan panas dunia
 
 
 {sot}
 |----------------------------------------------------------------|
 |---------------------------2------------------------------------|
 |-4-------------------------2------------------------------------|
 |-4-------------------------2------------------------------------|
 |-2--------------------------------------------------------------|
 |----------------------------------------------------------------|
 {eot}
 S[Bm]aat kaki t'lah lemah kita [A]saling menopang
 H[D]ingga nanti di suatu pagi [C#m]salah satu dari kita mati
 S[Bm]ampai jumpa di kehidupa[E]n yang lain[A]
 
 
 [A]Saat perutku mulai buncit...[A][D][A][D][E]
 [A]Yakinlah ku tetap yang tersexy..[A].[D][A][D][E]
 [A]Dan tetaplah kau s'lalu menanti[A]..[D].[A][D][E]
 [Bm]Nyanyianku [D]di malam hari..[A].[D][A]
 
 
 that's it.simple and fun song.suggestion or opinion email me at
 mohd0036@umn.edu. thnx