Song Information for Kaba

Song Title:Kaba
Artist:Shamrock
Hits:29
{t:Kaba}
 {st:Shamrock}
 
 Intro: E-A (4x)
 
 
 {sot}
 e-------------------------5-44-----I
 b------------------5-77-55---------I
 g----------------------------------I
 d--9-------------------------------I
 a--7--7-99-77\--7------------------I
 E---------------5------------------I
 e----------------------------------I
 b------------------5-77\-----------I
 g----------------------------------I
 d--9-------------------------------I
 a--7--7-99-77\--7------------------I
 E---------------5------------------I
 {eot}
 
 bass:
 
 
 {sot}
 e----------------------------------------------------I
 b----------------------------------------------------I
 g----------------------------------------------------I
 d----------------------------------7-6-7-6-5h6-5-----I
 a--7-777777-----------7-777777----7-------------7----I
 E------------5-555555-----------5--------------------I
 e---------------------------------------------------I
 b---------------------------------------------------I
 g---------------------------------------------------I
 d---------------------------------------------------I
 a--7-777777-----------7-777777----------------------I
 E------------5-555555-----------5-555555------------I
 {eot}
 
 
 verse:
 [CM7]Tatapusin ba ng p[G]alad mo
 [CM7]Walang panata sa atin k[G]ung ganun
 [CM7]Tangi ngang pag-isip at [G]masdan
 CM7 CM7(hold)CM7(hold) CM7
 Ang lalim ng pagitan sa aking kaibigan...
 
 Koro:
 
 bass:
 
 
 {sot}
 e----------------------------------------------------I
 b----------------------------------------------------I
 g----------------------------------------------------I
 d----------------------------------7-6-7-6-5h6-5-----I
 a--7-777777-----------7-777777----7-------------7----I
 E------------5-555555-----------5--------------------I
 e---------------------------------------------------I
 b---------------------------------------------------I
 g---------------------------------------------------I
 d---------------------------------------------------I
 a--7-777777-----------7-777777----------------------I
 E------------5-555555-----------5-555555------------I
 {eot}
 
 [E]Namumula na parang l[A]abi...(3x)
 
 
 {sot}
 e-------------------------5-44-----I
 b------------------5-77-55---------I
 g----------------------------------I
 d--9-------------------------------I
 a--7--7-99-77\--7------------------I
 E---------------5------------------I(3x)
 {eot}
 
 [E]Namumula na parang la[A]bi...
 
 
 {sot}
 e----------------------------------I
 b------------------5-77\-----------I
 g----------------------------------I
 d--9-------------------------------I
 a--7--7-99-77\--7------------------I
 E---------------5------------------I
 {eot}
 
 [CM7]Pano na sasaping pa[G]gtango
 [CM7]Pang-unawa sa m[G]ga damo...
 [CM7]Ang sakit ng ka[G]malayan
 CM7 CM7(hold)CM7(hold) CM7
 Ang dating nadungisan tamang katauhan...
 
 Koro 2:
 [E]Namumula na parang l[A]abi...(4x)
 [B]Patuloy ang k[A]utob baga'y nah[B]ihinok
 A B A-B...
 Palagi ang kulog ng kaisipan nya, ng kaisipan nya...
 
 [DM7]Panaginip ay p[A]animula
 [DM7]Sa wakas ika'y k[A]awawa
 [DM7]Darating pa ang u[A]maga
 DM7 DM7(hold)DM7(hold) DM7
 Ang layo ng umaga kuwento ng naibigan...
 
 adlib: B-E (4x)
 (parang ganito po ung adlib) (di pa tapos ito....
 mabilis na kasunod nito e...)
 
 {sot}
 e------------------------------------------------I
 b--------77-------------4-55-44----------77-/9---I
 g4-66-44----44----3-4-6----------4-66-44---------I
 d--------------4-6-------------------------------I
 a------------------------------------------------I
 E------------------------------------------------I
 {eot}
 (pero ganito pattern)try it!
 
 Bridge:
 [F#]Patuloy ang kut[E]ob baga'y nahi[F#]hinok
 E F# E-F#...
 Palagi ang kulog ng kaisipan nya, ng kaisipan nya...
 
 koro:
 [C]Namumula na parang l[F]abi...(4x)
 
 outro:
 Bass:
 
 
 {sot}
 e-----------------------------------I
 b-----------------------------------I
 g-----------------------------------I
 d-----------------------------------I
 a--77-7\6-66-6\4-44-4\2-2\1-2-4-----I
 E-----------------------------------I
 {eot}
 (2x)
 
 
 {sot}
 e-----------------------------------I
 b-----------------------------------I
 g-----------------------------------I
 d-----------------------------------I
 a--22-2\1-11------------------------I
 E------------4-44-4\2-2\1-2-4-------I
 e------------------------------------I
 b------------------------------------I
 g------------------------------------I
 d------------------------------------I
 a--77-7\6-66-6\4-44-4\2-2\1-2-1------I
 E-------------------------------2----I
 {eot}
 
 (fin)
 
 xenxa po if my mali sa lyrics...pero ganda din ung song na ito...pls rate!...