Song Information for K.I.N.G

Song Title:K.I.N.G
Artist:Satyricon
Hits:16
{t:K.I.N.G}
 {st:Satyricon}
 
 K.I.N.G.
 
 Satyricon
 Guitar I
 
 
 no palm muting for this riff!
 [E] [E] [E] [E] [E] [E] [E] [E] 
 {sot}
 D#||------------------------------------------------------|
 A#||------------------------------------------------------|
 F#||--2-----------------------------------10--------9--7--|
 C#||--0-----------------------------0--0---0--0--0--0--0--|
 G#||------------------------------------------------------|
 D#||------------------------------------------------------|
 {eot}
 
 tuning - down to Eb
 [E] [E] [E] [E] [E] [E] [E] [E] [E] [E] [E] [E] [E] [E] [E] [E] 
 {sot}
 -------------------------------------------|---------------------------|
 -------------------------------------------|---------------------------|
 --5-------------------7--7--7--3--7--7--7--|--2--------10--------9--7--|
 --0-------------------0--0--0--0--0--0--0--|--0--0--0---0--0--0--0--0--|
 -------------------------------------------|---------------------------|
 -------------------------------------------|---------------------------|
 {eot}
 
 [E] [E] [E] [E] [E] [E] [E] [E] [E] [E] [E] [E] [E] [E] [E] [E] 
 {sot}
 --------------------------|---------------------------|
 --------------------------|---------------------------|
 --5--7--7--7--3--7--7--7--|--2--------10--------9--7--|
 --0--0--0--0--0--0--0--0--|--0--0--0---0--0--0--0--0--|
 --------------------------|---------------------------|
 --------------------------|---------------------------|
 {eot}
 
 [E] [E] [E] [E] [E] [E] [E] [E] [E] [E] [E] [E] [E] [E] [E] [E] 
 {sot}
 --------------------------|----------------------------|
 --------------------------|----------------------------|
 --5--7--7--7--3--7--7--7--|--2--2--2--10--10-----9--7--|
 --0--0--0--0--0--0--0--0--|--0--0--0---0---0--0--0--0--|
 --------------------------|----------------------------|
 --------------------------|----------------------------|
 {eot}
 
 [E] [E] [E] [E] [E] [E] [E] [E] [E] [E] [E] [E] [E] [E] [E] [E] 
 {sot}
 --------------------------|----------------------------|
 --------------------------|----------------------------|
 --5--7--8--7--6--6--6--6--|--2--2--2--10--10-----9--7--|
 --0--0--0--0--6--6--6--6--|--0--0--0---0---0--0--0--0--|
 --------------4--4--4--4--|----------------------------|
 --------------------------|----------------------------|
 {eot}
 
 [E] [E] [E] [E] [E] [E] [E] [E] [E] [E] [E] [E] [E] [E] [E] [E] [E] [E] 
 {sot}
 --------------------------|------------------------------------|
 --------------------------|------------------------------------|
 --5--7--8--7--6--6--6--6--|--7--7--7--10--10S--9--9S--5--5--8--|
 --0--0--0--0--6--6--6--6--|--7--7--7--10--10S--9--9S--5--5--8--|
 --------------4--4--4--4--|--5--5--5---8---8S--7--7S--3--3--6--|
 --------------------------|--5--5--5---8---8S--7--7S--3--3--6--|
 {eot}
 
 [E] [E] [E] [E] [E] [E] [E] [E] [E] [E] [E] [E] [E] [E] [E] [E] [E] [E] [E] [E] 
 {sot}
 ------------------------------------|------------------------------------|
 ------------------------------------|------------------------------------|
 --7--7--7--10--10S--9--9S--5--5--8--|--7--7--7--10--10S--9--9S--5--5--8--|
 --7--7--7--10--10S--9--9S--5--5--8--|--7--7--7--10--10S--9--9S--5--5--8--|
 --5--5--5---8---8S--7--7S--3--3--6--|--5--5--5---8---8S--7--7S--3--3--6--|
 --5--5--5---8---8S--7--7S--3--3--6--|--5--5--5---8---8S--7--7S--3--3--6--|
 {eot}
 
 [E] [E] [E] [E] [E] [E] [E] [E] [E] [E] [E] [E] [E] [E] [E] [E] [E] [E] 
 {sot}
 ------------------------------------|----------------------------|
 ------------------------------------|----------------------------|
 --7--7--7--10--10S--9--9S--5--5--8--|--2--2--2--10--10-----9--7--|
 --7--7--7--10--10S--9--9S--5--5--8--|--0--0--0---0---0--0--0--0--|
 --5--5--5---8---8S--7--7S--3--3--6--|----------------------------|
 --5--5--5---8---8S--7--7S--3--3--6--|----------------------------|
 {eot}
 
 [E] [E] [E] [E] [E] [E] [E] [E] [E] [E] [E] [E] [E] [E] [E] [E] 
 {sot}
 --------------------------|----------------------------|
 --------------------------|----------------------------|
 --5--7--8--7--6--6--6--6--|--2--2--2--10--10-----9--7--|
 --0--0--0--0--6--6--6--6--|--0--0--0---0---0--0--0--0--|
 --------------4--4--4--4--|----------------------------|
 --------------------------|----------------------------|
 {eot}
 
 [E] [E] [E] [E] [E] [E] [E] [E] [E] [E] [E] [E] [E] [E] [E] [E] 
 {sot}
 --------------------------|----------------------------|
 --------------------------|----------------------------|
 --5--7--8--7--6--6--6--6--|--2--2--2--10--10-----9--7--|
 --0--0--0--0--6--6--6--6--|--0--0--0---0---0--0--0--0--|
 --------------4--4--4--4--|----------------------------|
 --------------------------|----------------------------|
 {eot}
 
 [E] [E] [E] [E] [E] [E] [E] [E] [E] [E] [E] [E] [E] [E] [E] [E] 
 {sot}
 --------------------------|----------------------------|
 --------------------------|----------------------------|
 --5--7--8--7--6--6--6--6--|--2--2--2--10--10-----9--7--|
 --0--0--0--0--6--6--6--6--|--0--0--0---0---0--0--0--0--|
 --------------4--4--4--4--|----------------------------|
 --------------------------|----------------------------|
 {eot}
 
 [E] [E] [E] [E] [E] [E] [E] [E] [E] [E] [E] [E] [E] [E] [E] [E] 
 {sot}
 --------------------------|----------------------------|
 --------------------------|----------------------------|
 --5--7--8--7--6--6--6--6--|--2--2--2--10--10-----9--7--|
 --0--0--0--0--6--6--6--6--|--0--0--0---0---0--0--0--0--|
 --------------4--4--4--4--|----------------------------|
 --------------------------|----------------------------|
 {eot}
 
 [E] [E] [E] [E] [E] [E] [E] [E] [E] [E] [E] [E] [E] [E] [E] [E] 
 {sot}
 --------------------------|----------------------------|
 --------------------------|----------------------------|
 --5--7--8--7--6--6--6--6--|--2--2--2--10--10-----9--7--|
 --0--0--0--0--6--6--6--6--|--0--0--0---0---0--0--0--0--|
 --------------4--4--4--4--|----------------------------|
 --------------------------|----------------------------|
 {eot}
 
 [E] [E] [E] [E] [E] [E] [E] [E] [E] [E] [E] [E] [E] [E] [E] [E] 
 {sot}
 --------------------------|----------------------------|
 --------------------------|----------------------------|
 --5--7--8--7--6--6--6--6--|--2--2--2--10--10-----9--7--|
 --0--0--0--0--6--6--6--6--|--0--0--0---0---0--0--0--0--|
 --------------4--4--4--4--|----------------------------|
 --------------------------|----------------------------|
 {eot}
 
 [E] [E] [E] [E] [E] [E] [E] [E] [E] [E] [E] [E] [E] [E] [E] [E] 
 {sot}
 --------------------------|----------------------------|
 --------------------------|----------------------------|
 --5--7--8--7--6--6--6--6--|--2--2--2--10--10-----9--7--|
 --0--0--0--0--6--6--6--6--|--0--0--0---0---0--0--0--0--|
 --------------4--4--4--4--|----------------------------|
 --------------------------|----------------------------|
 {eot}
 
 E E E E E E E E E E E Q E E E
 
 {sot}
 --------------------------|-------------------------|
 --------------------------|-------------------------|
 --5--7--8--7--6--6--6--6--|--7--7--7--8----7--5--7--|
 --0--0--0--0--6--6--6--6--|--7--7--7--8----7--5--7--|
 --------------4--4--4--4--|--5--5--5--6----5--3--5--|
 --------------------------|--5--5--5--6----5--3--5--|
 {eot}
 
 E E E E E E E E E E E Q E E E
 
 {sot}
 -----------------------------|-------------------------|
 -----------------------------|-------------------------|
 --5--5--5--8-----10--10--12--|--7--7--7--8----7--5--7--|
 --5--5--5--8-----10--10--12--|--7--7--7--8----7--5--7--|
 --3--3--3--6------8---8--10--|--5--5--5--6----5--3--5--|
 --3--3--3--6------8---8--10--|--5--5--5--6----5--3--5--|
 {eot}
 
 E E E E E E E E E E E Q E E E
 
 {sot}
 -----------------------------|-------------------------|
 -----------------------------|-------------------------|
 --5--5--5--8-----10--10--12--|--7--7--7--8----7--5--7--|
 --5--5--5--8-----10--10--12--|--7--7--7--8----7--5--7--|
 --3--3--3--6------8---8--10--|--5--5--5--6----5--3--5--|
 --3--3--3--6------8---8--10--|--5--5--5--6----5--3--5--|
 {eot}
 
 E E E E E E E E E E E Q E E E
 
 {sot}
 -----------------------------|-------------------------|
 -----------------------------|-------------------------|
 --5--5--5--8-----10--10--12--|--7--7--7--8----7--5--7--|
 --5--5--5--8-----10--10--12--|--7--7--7--8----7--5--7--|
 --3--3--3--6------8---8--10--|--5--5--5--6----5--3--5--|
 --3--3--3--6------8---8--10--|--5--5--5--6----5--3--5--|
 {eot}
 
 [E] [E] [E] [E] [E] [E] [E] [E] [E] [E] [E] [E] [E] [E] [E] [E] [E] [E] 
 {sot}
 -----------------------------|------------------------------------|
 -----------------------------|------------------------------------|
 --5--5--5--8-----10--10--12--|--7--7--7--10--10S--9--9S--5--5--8--|
 --5--5--5--8-----10--10--12--|--7--7--7--10--10S--9--9S--5--5--8--|
 --3--3--3--6------8---8--10--|--5--5--5---8---8S--7--7S--3--3--6--|
 --3--3--3--6------8---8--10--|--5--5--5---8---8S--7--7S--3--3--6--|
 {eot}
 
 [E] [E] [E] [E] [E] [E] [E] [E] [E] [E] [E] [E] [E] [E] [E] [E] [E] [E] [E] [E] 
 {sot}
 ------------------------------------|------------------------------------|
 ------------------------------------|------------------------------------|
 --7--7--7--10--10S--9--9S--5--5--8--|--7--7--7--10--10S--9--9S--5--5--8--|
 --7--7--7--10--10S--9--9S--5--5--8--|--7--7--7--10--10S--9--9S--5--5--8--|
 --5--5--5---8---8S--7--7S--3--3--6--|--5--5--5---8---8S--7--7S--3--3--6--|
 --5--5--5---8---8S--7--7S--3--3--6--|--5--5--5---8---8S--7--7S--3--3--6--|
 {eot}
 
 [E] [E] [E] [E] [E] [E] [E] [E] [E] [E] [E] [E] [E] [E] [E] [E] [E] [E] 
 {sot}
 ------------------------------------|----------------------------|
 ------------------------------------|----------------------------|
 --7--7--7--10--10S--9--9S--5--5--8--|--2--2--2--10--10-----9--7--|
 --7--7--7--10--10S--9--9S--5--5--8--|--0--0--0---0---0--0--0--0--|
 --5--5--5---8---8S--7--7S--3--3--6--|----------------------------|
 --5--5--5---8---8S--7--7S--3--3--6--|----------------------------|
 {eot}
 
 [E] [E] [E] [E] [E] [E] [E] [E] [E] [E] [E] [E] [E] [E] [E] [E] 
 {sot}
 --------------------------|----------------------------|
 --------------------------|----------------------------|
 --5--7--8--7--6--6--6--6--|--2--2--2--10--10-----9--7--|
 --0--0--0--0--6--6--6--6--|--0--0--0---0---0--0--0--0--|
 --------------4--4--4--4--|----------------------------|
 --------------------------|----------------------------|
 {eot}
 
 [E] [E] [E] [E] [E] [E] [E] [E] [E] [E] [E] [E] [E] [E] [E] [E] 
 {sot}
 --------------------------|----------------------------|
 --------------------------|----------------------------|
 --5--7--8--7--6--6--6--6--|--2--2--2--10--10-----9--7--|
 --0--0--0--0--6--6--6--6--|--0--0--0---0---0--0--0--0--|
 --------------4--4--4--4--|----------------------------|
 --------------------------|----------------------------|
 {eot}
 
 [E] [E] [E] [E] [E] [E] [E] [E] [E] [E] [E] [E] [E] [E] [E] [E] 
 {sot}
 --------------------------|----------------------------|
 --------------------------|----------------------------|
 --5--7--8--7--6--6--6--6--|--2--2--2--10--10-----9--7--|
 --0--0--0--0--6--6--6--6--|--0--0--0---0---0--0--0--0--|
 --------------4--4--4--4--|----------------------------|
 --------------------------|----------------------------|
 {eot}
 
 [E] [E] [E] [E] [E] [E] [E] [E] [E] [E] [E] [E] [E] [E] [E] [E] 
 {sot}
 --------------------------|----------------------------|
 --------------------------|----------------------------|
 --5--7--8--7--6--6--6--6--|--2--2--2--10--10-----9--7--|
 --0--0--0--0--6--6--6--6--|--0--0--0---0---0--0--0--0--|
 --------------4--4--4--4--|----------------------------|
 --------------------------|----------------------------|
 {eot}
 
 [E] [E] [E] [E] [E] [E] [E] [E] [E] [E] [E] [E] [E] [E] [E] [E] 
 {sot}
 --------------------------|----------------------------|
 --------------------------|----------------------------|
 --5--7--8--7--6--6--6--6--|--2--2--2--10--10-----9--7--|
 --0--0--0--0--6--6--6--6--|--0--0--0---0---0--0--0--0--|
 --------------4--4--4--4--|----------------------------|
 --------------------------|----------------------------|
 {eot}
 
 [E] [E] [E] [E] [E] [E] [E] [E] [E] [E] [E] [E] [E] [E] [E] [E] 
 {sot}
 --------------------------|----------------------------|
 --------------------------|----------------------------|
 --5--7--8--7--6--6--6--6--|--2--2--2--10--10-----9--7--|
 --0--0--0--0--6--6--6--6--|--0--0--0---0---0--0--0--0--|
 --------------4--4--4--4--|----------------------------|
 --------------------------|----------------------------|
 {eot}
 
 [E] [E] [E] [E] [E] [E] [E] [E] [E] [E] [E] [E] [E] [E] [E] [E] 
 {sot}
 --------------------------|----------------------------|
 --------------------------|----------------------------|
 --5--7--8--7--6--6--6--6--|--2--2--2--10--10-----9--7--|
 --0--0--0--0--6--6--6--6--|--0--0--0---0---0--0--0--0--|
 --------------4--4--4--4--|----------------------------|
 --------------------------|----------------------------|
 {eot}
 
 E E E E E E E E E E E Q E E E
 
 {sot}
 --------------------------|-------------------------|
 --------------------------|-------------------------|
 --5--7--8--7--6--6--6--6--|--7--7--7--8----7--5--7--|
 --0--0--0--0--6--6--6--6--|--7--7--7--8----7--5--7--|
 --------------4--4--4--4--|--5--5--5--6----5--3--5--|
 --------------------------|--5--5--5--6----5--3--5--|
 {eot}
 
 E E E E E E E E E E E Q E E E
 
 {sot}
 -----------------------------|-------------------------|
 -----------------------------|-------------------------|
 --5--5--5--8-----10--10--12--|--7--7--7--8----7--5--7--|
 --5--5--5--8-----10--10--12--|--7--7--7--8----7--5--7--|
 --3--3--3--6------8---8--10--|--5--5--5--6----5--3--5--|
 --3--3--3--6------8---8--10--|--5--5--5--6----5--3--5--|
 {eot}
 
 E E E E E E E E E E E Q E E E
 
 {sot}
 -----------------------------|-------------------------|
 -----------------------------|-------------------------|
 --5--5--5--8-----10--10--12--|--7--7--7--8----7--5--7--|
 --5--5--5--8-----10--10--12--|--7--7--7--8----7--5--7--|
 --3--3--3--6------8---8--10--|--5--5--5--6----5--3--5--|
 --3--3--3--6------8---8--10--|--5--5--5--6----5--3--5--|
 {eot}
 
 E E E E E E E E E E E Q E E E
 
 {sot}
 -----------------------------|-------------------------|
 -----------------------------|-------------------------|
 --5--5--5--8-----10--10--12--|--7--7--7--8----7--5--7--|
 --5--5--5--8-----10--10--12--|--7--7--7--8----7--5--7--|
 --3--3--3--6------8---8--10--|--5--5--5--6----5--3--5--|
 --3--3--3--6------8---8--10--|--5--5--5--6----5--3--5--|
 {eot}
 
 [E] [E] [E] [E] [E] [E] [E] [E] [E] [E] [E] [E] [E] [E] [E] [E] [E] [E] 
 {sot}
 -----------------------------|------------------------------------|
 -----------------------------|------------------------------------|
 --5--5--5--8-----10--10--12--|--7--7--7--10--10S--9--9S--5--5--8--|
 --5--5--5--8-----10--10--12--|--7--7--7--10--10S--9--9S--5--5--8--|
 --3--3--3--6------8---8--10--|--5--5--5---8---8S--7--7S--3--3--6--|
 --3--3--3--6------8---8--10--|--5--5--5---8---8S--7--7S--3--3--6--|
 {eot}
 
 [E] [E] [E] [E] [E] [E] [E] [E] [E] [E] [E] [E] [E] [E] [E] [E] [E] [E] [E] [E] 
 {sot}
 ------------------------------------|------------------------------------|
 ------------------------------------|------------------------------------|
 --7--7--7--10--10S--9--9S--5--5--8--|--7--7--7--10--10S--9--9S--5--5--8--|
 --7--7--7--10--10S--9--9S--5--5--8--|--7--7--7--10--10S--9--9S--5--5--8--|
 --5--5--5---8---8S--7--7S--3--3--6--|--5--5--5---8---8S--7--7S--3--3--6--|
 --5--5--5---8---8S--7--7S--3--3--6--|--5--5--5---8---8S--7--7S--3--3--6--|
 {eot}
 
 E E E E E E E E E E E E Q. E E E
 
 {sot}
 ------------------------------------|------------------------|
 ------------------------------------|------------------------|
 --7--7--7--10--10S--9--9S--5--5--8--|------------------------|
 --7--7--7--10--10S--9--9S--5--5--8--|--7--7---------2--3--5--|
 --5--5--5---8---8S--7--7S--3--3--6--|--7--7---------2--3--5--|
 --5--5--5---8---8S--7--7S--3--3--6--|--5--5---------0--1--3--|
 {eot}
 
 Q E E E E E E E E Q. E E E
 
 {sot}
 ---------------------------|------------------------|
 ---------------------------|------------------------|
 ---------------------------|------------------------|
 --5----10--10-----5--5--8--|--7--7---------2--3--5--|
 --5----10--10-----5--5--8--|--7--7---------2--3--5--|
 --3-----8---8-----3--3--6--|--5--5---------0--1--3--|
 {eot}
 
 Q E E E E E E E E Q. E E E
 
 {sot}
 ---------------------------|------------------------|
 ---------------------------|------------------------|
 ---------------------------|------------------------|
 --5----10--10-----5--5--8--|--7--7---------2--3--5--|
 --5----10--10-----5--5--8--|--7--7---------2--3--5--|
 --3-----8---8-----3--3--6--|--5--5---------0--1--3--|
 {eot}
 
 Q E E E E E E E E Q. E E E
 
 {sot}
 ---------------------------|------------------------|
 ---------------------------|------------------------|
 ---------------------------|------------------------|
 --5----10--10-----5--5--8--|--7--7---------2--3--5--|
 --5----10--10-----5--5--8--|--7--7---------2--3--5--|
 --3-----8---8-----3--3--6--|--5--5---------0--1--3--|
 {eot}
 
 Q E E E E E E E E E E E E E E
 
 {sot}
 ---------------------------|--------------------------|
 ---------------------------|--------------------------|
 ---------------------------|--------------------------|
 --5----10--10-----5--5--8--|--7--7--7--7--7--2--2--3--|
 --5----10--10-----5--5--8--|--7--7--7--7--7--2--2--3--|
 --3-----8---8-----3--3--6--|--5--5--5--5--5--0--0--1--|
 {eot}
 
 [E] [E] [E] [E] [E] [E] [E] [E] [E] [E] [E] [E] [E] [E] [E] [E] 
 {sot}
 -------------------------------|--------------------------|
 -------------------------------|--------------------------|
 -------------------------------|--------------------------|
 --10--10--10--10--10--5--5--8--|--7--7--7--7--7--2--2--3--|
 --10--10--10--10--10--5--5--8--|--7--7--7--7--7--2--2--3--|
 ---8---8---8---8---8--3--3--6--|--5--5--5--5--5--0--0--1--|
 {eot}
 
 [E] [E] [E] [E] [E] [E] [E] [E] [E] [E] [E] [E] [E] [E] [E] [E] 
 {sot}
 -------------------------------|--------------------------|
 -------------------------------|--------------------------|
 -------------------------------|--------------------------|
 --10--10--10--10--10--5--5--8--|--7--7--7--7--7--2--2--3--|
 --10--10--10--10--10--5--5--8--|--7--7--7--7--7--2--2--3--|
 ---8---8---8---8---8--3--3--6--|--5--5--5--5--5--0--0--1--|
 {eot}
 
 [E] [E] [E] [E] [E] [E] [E] [E] [E] [E] [E] [E] [E] [E] [E] [E] 
 {sot}
 -------------------------------|--------------------------|
 -------------------------------|--------------------------|
 -------------------------------|--------------------------|
 --10--10--10--10--10--5--5--8--|--7--7--7--7--7--2--2--3--|
 --10--10--10--10--10--5--5--8--|--7--7--7--7--7--2--2--3--|
 ---8---8---8---8---8--3--3--6--|--5--5--5--5--5--0--0--1--|
 {eot}
 
 [E] [E] [E] [E] [E] [E] [E] [E] [E] [E] [E] [E] [E] [E] [E] [E] 
 {sot}
 -------------------------------|----------------------------|
 -------------------------------|----------------------------|
 -------------------------------|--2--2--2--10--10-----9--7--|
 --10--10--10--10--10--5--5--8--|--0--0--0---0---0--0--0--0--|
 --10--10--10--10--10--5--5--8--|----------------------------|
 ---8---8---8---8---8--3--3--6--|----------------------------|
 {eot}
 
 [E] [E] [E] [E] [E] [E] [E] [E] [E] [E] [E] [E] [E] [E] [E] [E] 
 {sot}
 --------------------------|----------------------------|
 --------------------------|----------------------------|
 --5--7--8--7--6--6--6--6--|--2--2--2--10--10-----9--7--|
 --0--0--0--0--6--6--6--6--|--0--0--0---0---0--0--0--0--|
 --------------4--4--4--4--|----------------------------|
 --------------------------|----------------------------|
 {eot}
 
 [E] [E] [E] [E] [E] [E] [E] [E] [E] [E] [E] [E] [E] [E] [E] [E] 
 {sot}
 --------------------------|----------------------------|
 --------------------------|----------------------------|
 --5--7--8--7--6--6--6--6--|--2--2--2--10--10-----9--7--|
 --0--0--0--0--6--6--6--6--|--0--0--0---0---0--0--0--0--|
 --------------4--4--4--4--|----------------------------|
 --------------------------|----------------------------|
 {eot}
 
 [E] [E] [E] [E] [E] [E] [E] [E] [E] [E] [E] [E] [E] [E] [E] [E] 
 {sot}
 --------------------------|----------------------------|
 --------------------------|----------------------------|
 --5--7--8--7--6--6--6--6--|--2--2--2--10--10-----9--7--|
 --0--0--0--0--6--6--6--6--|--0--0--0---0---0--0--0--0--|
 --------------4--4--4--4--|----------------------------|
 --------------------------|----------------------------|
 {eot}
 
 E E E E E E E E E E E Q E E E
 
 {sot}
 --------------------------|-------------------------|
 --------------------------|-------------------------|
 --5--7--8--7--6--6--6--6--|--7--7--7--8----7--5--7--|
 --0--0--0--0--6--6--6--6--|--7--7--7--8----7--5--7--|
 --------------4--4--4--4--|--5--5--5--6----5--3--5--|
 --------------------------|--5--5--5--6----5--3--5--|
 {eot}
 
 E E E E E E E E E E E Q E E E
 
 {sot}
 -----------------------------|-------------------------|
 -----------------------------|-------------------------|
 --5--5--5--8-----10--10--12--|--7--7--7--8----7--5--7--|
 --5--5--5--8-----10--10--12--|--7--7--7--8----7--5--7--|
 --3--3--3--6------8---8--10--|--5--5--5--6----5--3--5--|
 --3--3--3--6------8---8--10--|--5--5--5--6----5--3--5--|
 {eot}
 
 E E E E E E E E E E E Q E E E
 
 {sot}
 -----------------------------|-------------------------|
 -----------------------------|-------------------------|
 --5--5--5--8-----10--10--12--|--7--7--7--8----7--5--7--|
 --5--5--5--8-----10--10--12--|--7--7--7--8----7--5--7--|
 --3--3--3--6------8---8--10--|--5--5--5--6----5--3--5--|
 --3--3--3--6------8---8--10--|--5--5--5--6----5--3--5--|
 {eot}
 
 E E E E E E E E E E E Q E E E
 
 {sot}
 -----------------------------|-------------------------|
 -----------------------------|-------------------------|
 --5--5--5--8-----10--10--12--|--7--7--7--8----7--5--7--|
 --5--5--5--8-----10--10--12--|--7--7--7--8----7--5--7--|
 --3--3--3--6------8---8--10--|--5--5--5--6----5--3--5--|
 --3--3--3--6------8---8--10--|--5--5--5--6----5--3--5--|
 {eot}
 
 [E] [E] [E] [E] [E] [E] [E] [E] [E] [E] [E] [E] [E] [E] [E] [E] 
 {sot}
 -----------------------------|----------------------------|
 -----------------------------|----------------------------|
 --5--5--5--8-----10--10--12--|--2--2--2--10--10-----9--7--|
 --5--5--5--8-----10--10--12--|--0--0--0---0---0--0--0--0--|
 --3--3--3--6------8---8--10--|----------------------------|
 --3--3--3--6------8---8--10--|----------------------------|
 {eot}
 
 [E] [E] [E] [E] [E] [E] [E] [E] [E] [E] [E] [E] [E] [E] [E] [E] [E] [E] 
 {sot}
 --------------------------|------------------------------------|
 --------------------------|------------------------------------|
 --5--7--8--7--6--6--6--6--|--7--7--7--10--10S--9--9S--5--5--8--|
 --0--0--0--0--6--6--6--6--|--7--7--7--10--10S--9--9S--5--5--8--|
 --------------4--4--4--4--|--5--5--5---8---8S--7--7S--3--3--6--|
 --------------------------|--5--5--5---8---8S--7--7S--3--3--6--|
 {eot}
 
 [E] [E] [E] [E] [E] [E] [E] [E] [E] [E] [E] [E] [E] [E] [E] [E] [E] [E] [E] [E] 
 {sot}
 ------------------------------------|------------------------------------|
 ------------------------------------|------------------------------------|
 --7--7--7--10--10S--9--9S--5--5--8--|--7--7--7--10--10S--9--9S--5--5--8--|
 --7--7--7--10--10S--9--9S--5--5--8--|--7--7--7--10--10S--9--9S--5--5--8--|
 --5--5--5---8---8S--7--7S--3--3--6--|--5--5--5---8---8S--7--7S--3--3--6--|
 --5--5--5---8---8S--7--7S--3--3--6--|--5--5--5---8---8S--7--7S--3--3--6--|
 {eot}
 
 E E E E E E E E E E E E W
 
 {sot}
 ------------------------------------|-------------------------||
 ------------------------------------|-------------------------||
 --7--7--7--10--10S--9--9S--5--5--8--|--7----------------------||
 --7--7--7--10--10S--9--9S--5--5--8--|--7----------------------||
 --5--5--5---8---8S--7--7S--3--3--6--|--5----------------------||
 --5--5--5---8---8S--7--7S--3--3--6--|--5----------------------||
 {eot}
 
 
 Duration Legend
 
 {sot}
 ---------------
 {eot}
 W - whole
 H - half
 Q - quarter
 E - 8th
 S - 16th
 T - 32nd
 X - 64th
 . - note dotted
 |-n-| - n-tuplets
 
 Tablature Legend
 
 {sot}
 ----------------
 {eot}
 L - tied note
 x - dead note
 g - grace note
 (n) - ghost note
 > - accentuded note
 NH - natural harmonic
 AH - artificial harmonic
 TH - tapped harmonic
 SH - semi harmonic
 PH - pitch harmonic
 h - hammer on
 p - pull off
 b - bend
 br - bendRelease
 pb - preBend
 pbr - preBendRelease
 brb - bendReleaseBend
 \n/ - tremolo bar dip
 \n - tremolo bar dive
 -/n - tremolo bar Release up
 /n\ - tremolo bar inverted dip
 /n - tremolo bar return
 -\n - tremolo bar Release down
 S - shift slide
 s - legato slide
 / - slide into from below or out of upwards
 \ - slide into from above or out of downwards
 ~ - vibrato
 W - wide vibrato
 tr - trill
 TP - tremolo picking
 T - tapping
 S - slap
 P - pop
 < - fade in
 ^ - brush up
 v - brush down