Song Information for Sa Aking Puso

Song Title:Sa Aking Puso
Artist:Rivera, Ariel
Hits:41
{t:Sa Aking Puso}
 {st:Ariel Rivera}
 
 
 {sot}
 E|--------------------0--1--3-----------0--|
 B|--1-----1--1--3--3--------------------1--|
 G|-----0-----------------------------0--2--|
 D|--------------------------------2-----2--|
 A|--3--------------------------2--------0--|
 E|--------------3-----------0--------------|
 {eot}
 [C]Uulit-u[G]litin ko sa '[Em]yo[Am]
 
 
 {sot}
 E|--3--1--0--1-----------------------0--------------3--|
 B|--------------1--------0--1--3--3-----------------0--|
 G|-----------------2-----------------------------0--0--|
 D|--------0-----------------------------------0-----0--|
 A|--------------------------------3--------2--------2--|
 E|--------------------3-----------------3-----------3--|
 {eot}
 Ang na[Dm7]darama[G] ng aking [C]puso[G]
 
 
 {sot}
 E|----------------------0--3/5--3-----------0--|
 B|----1-----1--1--3--3----------------------1--|
 G|-------1-------------------------------0--2--|
 D|------------------------------------2-----2--|
 A|----3----------------------------2--------0--|
 E|----------------3-------------0--------------|
 {eot}
 [C]Ang damdamin k[G]o'y para lang sa '[Em]yo[Am]
 
 
 {sot}
 E|--3--1--0--1-----------------------0-----0--|
 B|--------------1--------0--1--3--3----1---1--|
 G|-----------------2--------------------0--3--|
 D|--------0--------------------------------2--|
 A|--------------------------------3--------3--|
 E|--------------------3-----------------------|
 {eot}
 Kahit k[Dm7]ailanma'y[G] hindi magba[C]bago
 
 CHORUS:
 
 
 {sot}
 E|-----5-----------------------5--3--3--0-----------|
 B|--1-----1--1--1--0--0--1--3--------------1--------|
 G|-----------------------------------------------2--|
 D|--------------------------------------------2-----|
 A|-----------------------------------------0--------|
 E|-----1-----------3-----------0--------------------|
 {eot}
 Ik[F]aw ang laging [G]hanap hanap [Em]sa gabi't a[Am]raw
 
 
 {sot}
 E|--3--1--1--0--0-----0--1--5--3--3-----3--|
 B|-----------------3-----------------6--5--|
 G|--------------------------------------3--|
 D|--0-----------------------------------5--|
 A|--------------------------3-----------3--|
 E|--------------3--------------------------|
 {eot}
 I[Dm7]kaw ang nais k[G]ong sa tuwina [C]ay natata[C7]naw
 
 
 {sot}
 E|-----5-----------------------5--3--3--0-----------|
 B|--1-----1--1--1--0--0--1--3--------------1--------|
 G|-----------------------------------------------2--|
 D|--------------------------------------------2-----|
 A|-----------------------------------------0--------|
 E|-----1-----------3-----------0--------------------|
 {eot}
 Ik[F]aw ang buhay [G]at pag-ibig W[Em]ala na ngang i[Am]ba
 
 
 {sot}
 E|----------0--3--1--1--0--0-----------------------0--|
 B|----1--3--------------------3--1--0--1--------1--1--|
 G|-------------------------------------------0-----0--|
 D|-------------0--------------------------2--------2--|
 A|-------------------------------------3-----------3--|
 E|-------------------------3--------------------------|
 {eot}
 Sa 'king pu[Dm7]so'y tunay k[G]ang nag-ii[C]sa
 
 Follow the same chords and tabs?..
 
 'Di ko nais na mawalay ka
 Kahit sandali sa aking piling
 Kahit buksan pa ang dibdib ko
 Matatagpua'y larawan mo
 (Repeat Chorus)
 Kahit buksan pa ang dibdib ko
 Matatagpua'y larawan mo
 (Repeat Chorus until fade)